ISO-10303-21;
HEADER;
FILE_DESCRIPTION (( 'STEP AP203' ),
    '1' );
FILE_NAME ('QM-AAHWP-20-650-1100-M.STEP',
    '2021-01-05T02:33:46',
    ( '' ),
    ( '' ),
    'SwSTEP 2.0',
    'SolidWorks 2020',
    '' );
FILE_SCHEMA (( 'CONFIG_CONTROL_DESIGN' ));
ENDSEC;

DATA;
#1 = VERTEX_POINT ( 'NONE', #299 ) ;
#2 = CIRCLE ( 'NONE', #229, 10.00000000000000000 ) ;
#3 = ADVANCED_FACE ( 'NONE', ( #198 ), #45, .F. ) ;
#4 = COORDINATED_UNIVERSAL_TIME_OFFSET ( 8, 0, .AHEAD. ) ;
#5 = ORIENTED_EDGE ( 'NONE', *, *, #246, .F. ) ;
#6 = SECURITY_CLASSIFICATION_LEVEL ( 'unclassified' ) ;
#7 = PRODUCT_DEFINITION_SHAPE ( 'NONE', 'NONE',  #92 ) ;
#8 = ORIENTED_EDGE ( 'NONE', *, *, #130, .F. ) ;
#9 = ORIENTED_EDGE ( 'NONE', *, *, #105, .F. ) ;
#10 = DATE_TIME_ROLE ( 'classification_date' ) ;
#11 = DIRECTION ( 'NONE',  ( 0.000000000000000000, 0.000000000000000000, -1.000000000000000000 ) ) ;
#12 = SHAPE_DEFINITION_REPRESENTATION ( #7, #204 ) ;
#13 = VECTOR ( 'NONE', #126, 1000.000000000000000 ) ;
#14 = DIRECTION ( 'NONE',  ( 0.000000000000000000, 0.000000000000000000, 1.000000000000000000 ) ) ;
#15 = APPROVAL_ROLE ( '' ) ;
#16 = CARTESIAN_POINT ( 'NONE',  ( -3.000000000000000000, 0.000000000000000000, 12.69999999999999929 ) ) ;
#17 = VECTOR ( 'NONE', #195, 1000.000000000000000 ) ;
#18 = CARTESIAN_POINT ( 'NONE',  ( -1.614212418857619014, 0.000000000000000000, 0.000000000000000000 ) ) ;
#19 = FACE_OUTER_BOUND ( 'NONE', #69, .T. ) ;
#20 = CARTESIAN_POINT ( 'NONE',  ( -1.614212418857619014, 0.000000000000000000, 0.000000000000000000 ) ) ;
#21 = ADVANCED_FACE ( 'NONE', ( #253, #119 ), #64, .F. ) ;
#22 = CARTESIAN_POINT ( 'NONE',  ( -0.5000000000000006661, 0.000000000000000000, 10.00000000000000000 ) ) ;
#23 = AXIS2_PLACEMENT_3D ( 'NONE', #39, #145, #11 ) ;
#24 = LOCAL_TIME ( 10, 33, 46.00000000000000000, #147 ) ;
#25 = ORIENTED_EDGE ( 'NONE', *, *, #166, .T. ) ;
#26 = APPROVAL ( #124, 'UNSPECIFIED' ) ;
#27 = PERSON_AND_ORGANIZATION ( #247, #170 ) ;
#28 = ORIENTED_EDGE ( 'NONE', *, *, #105, .T. ) ;
#29 = COORDINATED_UNIVERSAL_TIME_OFFSET ( 8, 0, .AHEAD. ) ;
#30 = ORIENTED_EDGE ( 'NONE', *, *, #160, .T. ) ;
#31 = LOCAL_TIME ( 10, 33, 46.00000000000000000, #164 ) ;
#32 = CARTESIAN_POINT ( 'NONE',  ( 0.000000000000000000, 0.000000000000000000, 0.000000000000000000 ) ) ;
#33 = CC_DESIGN_DATE_AND_TIME_ASSIGNMENT ( #85, #136, ( #92 ) ) ;
#34 = ADVANCED_FACE ( 'NONE', ( #319, #148 ), #151, .F. ) ;
#35 = APPROVAL_ROLE ( '' ) ;
#36 = CARTESIAN_POINT ( 'NONE',  ( 0.5000000000000006661, 10.00000000000000000, 0.000000000000000000 ) ) ;
#37 = AXIS2_PLACEMENT_3D ( 'NONE', #36, #167, #143 ) ;
#38 = AXIS2_PLACEMENT_3D ( 'NONE', #20, #302, #230 ) ;
#39 = CARTESIAN_POINT ( 'NONE',  ( -0.5000000000000006661, 10.00000000000000000, 0.000000000000000000 ) ) ;
#40 = PERSON_AND_ORGANIZATION ( #247, #170 ) ;
#41 = UNCERTAINTY_MEASURE_WITH_UNIT (LENGTH_MEASURE( 1.000000000000000082E-05 ), #262, 'distance_accuracy_value', 'NONE');
#42 = EDGE_CURVE ( 'NONE', #186, #322, #88, .T. ) ;
#43 = CALENDAR_DATE ( 2021, 5, 1 ) ;
#44 = AXIS2_PLACEMENT_3D ( 'NONE', #172, #152, #328 ) ;
#45 = CYLINDRICAL_SURFACE ( 'NONE', #285, 10.00000000000000000 ) ;
#46 = CARTESIAN_POINT ( 'NONE',  ( -1.614212418857619014, 0.000000000000000000, 0.000000000000000000 ) ) ;
#47 = CYLINDRICAL_SURFACE ( 'NONE', #325, 10.00000000000000000 ) ;
#48 = CIRCLE ( 'NONE', #139, 12.69999999999999929 ) ;
#49 = CYLINDRICAL_SURFACE ( 'NONE', #273, 10.00000000000000000 ) ;
#50 =( GEOMETRIC_REPRESENTATION_CONTEXT ( 3 ) GLOBAL_UNCERTAINTY_ASSIGNED_CONTEXT ( ( #41 ) ) GLOBAL_UNIT_ASSIGNED_CONTEXT ( ( #262, #173, #283 ) ) REPRESENTATION_CONTEXT ( 'NONE', 'WORKASPACE' ) );
#51 = CARTESIAN_POINT ( 'NONE',  ( 0.5000000000000013323, 0.000000000000000000, 0.000000000000000000 ) ) ;
#52 = DIRECTION ( 'NONE',  ( 0.000000000000000000, 0.000000000000000000, 1.000000000000000000 ) ) ;
#53 = FACE_OUTER_BOUND ( 'NONE', #317, .T. ) ;
#54 = ADVANCED_FACE ( 'NONE', ( #95 ), #116, .F. ) ;
#55 = DIRECTION ( 'NONE',  ( -1.000000000000000000, -0.000000000000000000, -0.000000000000000000 ) ) ;
#56 = CARTESIAN_POINT ( 'NONE',  ( 2.999999999999999112, 0.000000000000000000, 0.000000000000000000 ) ) ;
#57 = CC_DESIGN_PERSON_AND_ORGANIZATION_ASSIGNMENT ( #267, #110, ( #200 ) ) ;
#58 = ORIENTED_EDGE ( 'NONE', *, *, #240, .T. ) ;
#59 = ORIENTED_EDGE ( 'NONE', *, *, #82, .T. ) ;
#60 = VERTEX_POINT ( 'NONE', #68 ) ;
#61 = CLOSED_SHELL ( 'NONE', ( #269, #197, #3, #54, #156, #215, #34, #313, #21, #71 ) ) ;
#62 = ORIENTED_EDGE ( 'NONE', *, *, #118, .T. ) ;
#63 = PERSON_AND_ORGANIZATION_ROLE ( 'classification_officer' ) ;
#64 = PLANE ( 'NONE',  #196 ) ;
#65 = APPROVAL_DATE_TIME ( #125, #26 ) ;
#66 = SECURITY_CLASSIFICATION ( '', '', #6 ) ;
#67 = ORIENTED_EDGE ( 'NONE', *, *, #201, .T. ) ;
#68 = CARTESIAN_POINT ( 'NONE',  ( -3.000000000000000000, 1.224646799147353256E-15, -10.00000000000000000 ) ) ;
#69 = EDGE_LOOP ( 'NONE', ( #58, #210, #86, #263 ) ) ;
#70 = CIRCLE ( 'NONE', #242, 10.00000000000000000 ) ;
#71 = ADVANCED_FACE ( 'NONE', ( #298 ), #194, .F. ) ;
#72 = CARTESIAN_POINT ( 'NONE',  ( -1.614212418857619014, 0.000000000000000000, 0.000000000000000000 ) ) ;
#73 = CARTESIAN_POINT ( 'NONE',  ( 3.000000000000000000, 0.000000000000000000, 12.69999999999999929 ) ) ;
#74 = CARTESIAN_POINT ( 'NONE',  ( -3.000000000000000000, 0.000000000000000000, 0.000000000000000000 ) ) ;
#75 = CARTESIAN_POINT ( 'NONE',  ( -1.614212418857619014, 1.555301434917138433E-15, -12.69999999999999929 ) ) ;
#76 = EDGE_CURVE ( 'NONE', #1, #60, #221, .T. ) ;
#77 = APPLICATION_CONTEXT ( 'configuration controlled 3d designs of mechanical parts and assemblies' ) ;
#78 = PRODUCT ( 'QM-AAHWP-20-650-1100-M', 'QM-AAHWP-20-650-1100-M', '', ( #220 ) ) ;
#79 = DIRECTION ( 'NONE',  ( 0.000000000000000000, 0.000000000000000000, 1.000000000000000000 ) ) ;
#80 = CARTESIAN_POINT ( 'NONE',  ( 3.000000000000000000, 1.555301434917138433E-15, -12.69999999999999929 ) ) ;
#81 = CC_DESIGN_PERSON_AND_ORGANIZATION_ASSIGNMENT ( #91, #293, ( #92 ) ) ;
#82 = EDGE_CURVE ( 'NONE', #184, #212, #297, .T. ) ;
#83 = CIRCLE ( 'NONE', #279, 12.69999999999999929 ) ;
#84 = EDGE_LOOP ( 'NONE', ( #233, #25, #288, #163 ) ) ;
#85 = DATE_AND_TIME ( #87, #89 ) ;
#86 = ORIENTED_EDGE ( 'NONE', *, *, #275, .T. ) ;
#87 = CALENDAR_DATE ( 2021, 5, 1 ) ;
#88 = CIRCLE ( 'NONE', #133, 10.00000000000000000 ) ;
#89 = LOCAL_TIME ( 10, 33, 46.00000000000000000, #217 ) ;
#90 = DIRECTION ( 'NONE',  ( -1.000000000000000000, 0.000000000000000000, -0.000000000000000000 ) ) ;
#91 = PERSON_AND_ORGANIZATION ( #247, #170 ) ;
#92 = PRODUCT_DEFINITION ( 'UNKNOWN', '', #200, #272 ) ;
#93 = DIRECTION ( 'NONE',  ( -1.000000000000000000, -0.000000000000000000, -0.000000000000000000 ) ) ;
#94 = CARTESIAN_POINT ( 'NONE',  ( -1.614212418857619014, 1.224646799147353256E-15, -10.00000000000000000 ) ) ;
#95 = FACE_OUTER_BOUND ( 'NONE', #314, .T. ) ;
#96 = DIRECTION ( 'NONE',  ( -1.000000000000000000, -0.000000000000000000, -0.000000000000000000 ) ) ;
#97 = APPROVAL_PERSON_ORGANIZATION ( #40, #26, #15 ) ;
#98 = LINE ( 'NONE', #308, #213 ) ;
#99 = DIRECTION ( 'NONE',  ( -1.000000000000000000, -0.000000000000000000, -0.000000000000000000 ) ) ;
#100 = EDGE_CURVE ( 'NONE', #218, #238, #132, .T. ) ;
#101 = CARTESIAN_POINT ( 'NONE',  ( 0.5000000000000013323, 0.000000000000000000, 10.00000000000000000 ) ) ;
#102 = CIRCLE ( 'NONE', #219, 12.69999999999999929 ) ;
#103 = DIRECTION ( 'NONE',  ( -1.000000000000000000, -0.000000000000000000, -0.000000000000000000 ) ) ;
#104 = EDGE_CURVE ( 'NONE', #238, #60, #296, .T. ) ;
#105 = EDGE_CURVE ( 'NONE', #212, #214, #48, .T. ) ;
#106 = EDGE_LOOP ( 'NONE', ( #295, #137 ) ) ;
#107 = DATE_AND_TIME ( #287, #321 ) ;
#108 = CC_DESIGN_SECURITY_CLASSIFICATION ( #66, ( #200 ) ) ;
#109 = ORIENTED_EDGE ( 'NONE', *, *, #268, .T. ) ;
#110 = PERSON_AND_ORGANIZATION_ROLE ( 'design_supplier' ) ;
#111 = APPROVAL_DATE_TIME ( #107, #223 ) ;
#112 = ORIENTED_EDGE ( 'NONE', *, *, #42, .F. ) ;
#113 = PERSON_AND_ORGANIZATION ( #247, #170 ) ;
#114 = ORIENTED_EDGE ( 'NONE', *, *, #104, .F. ) ;
#115 = VECTOR ( 'NONE', #103, 1000.000000000000000 ) ;
#116 = PLANE ( 'NONE',  #37 ) ;
#117 = EDGE_CURVE ( 'NONE', #264, #322, #228, .T. ) ;
#118 = EDGE_CURVE ( 'NONE', #184, #284, #83, .T. ) ;
#119 = FACE_BOUND ( 'NONE', #199, .T. ) ;
#120 = ORIENTED_EDGE ( 'NONE', *, *, #42, .T. ) ;
#121 = VECTOR ( 'NONE', #259, 1000.000000000000000 ) ;
#122 = AXIS2_PLACEMENT_3D ( 'NONE', #56, #178, #227 ) ;
#123 = CARTESIAN_POINT ( 'NONE',  ( -3.000000000000000000, 10.00000000000000000, 0.000000000000000000 ) ) ;
#124 = APPROVAL_STATUS ( 'not_yet_approved' ) ;
#125 = DATE_AND_TIME ( #43, #24 ) ;
#126 = DIRECTION ( 'NONE',  ( -1.000000000000000000, -0.000000000000000000, -0.000000000000000000 ) ) ;
#127 = DIRECTION ( 'NONE',  ( 0.000000000000000000, 0.000000000000000000, 1.000000000000000000 ) ) ;
#128 = DIRECTION ( 'NONE',  ( -1.000000000000000000, -0.000000000000000000, -0.000000000000000000 ) ) ;
#129 = CYLINDRICAL_SURFACE ( 'NONE', #38, 12.69999999999999929 ) ;
#130 = EDGE_CURVE ( 'NONE', #231, #186, #98, .T. ) ;
#131 = DIRECTION ( 'NONE',  ( 0.000000000000000000, 0.000000000000000000, 1.000000000000000000 ) ) ;
#132 = LINE ( 'NONE', #324, #149 ) ;
#133 = AXIS2_PLACEMENT_3D ( 'NONE', #165, #93, #193 ) ;
#134 = CARTESIAN_POINT ( 'NONE',  ( 2.999999999999999112, 0.000000000000000000, 10.00000000000000000 ) ) ;
#135 = ORIENTED_EDGE ( 'NONE', *, *, #117, .F. ) ;
#136 = DATE_TIME_ROLE ( 'creation_date' ) ;
#137 = ORIENTED_EDGE ( 'NONE', *, *, #166, .F. ) ;
#138 = DATE_AND_TIME ( #239, #208 ) ;
#139 = AXIS2_PLACEMENT_3D ( 'NONE', #301, #205, #303 ) ;
#140 = CIRCLE ( 'NONE', #176, 10.00000000000000000 ) ;
#141 = PERSON_AND_ORGANIZATION ( #247, #170 ) ;
#142 = ORIENTED_EDGE ( 'NONE', *, *, #118, .F. ) ;
#143 = DIRECTION ( 'NONE',  ( -0.000000000000000000, 0.000000000000000000, 1.000000000000000000 ) ) ;
#144 = AXIS2_PLACEMENT_3D ( 'NONE', #32, #187, #232 ) ;
#145 = DIRECTION ( 'NONE',  ( 1.000000000000000000, 0.000000000000000000, 0.000000000000000000 ) ) ;
#146 = DIRECTION ( 'NONE',  ( -1.000000000000000000, -0.000000000000000000, -0.000000000000000000 ) ) ;
#147 = COORDINATED_UNIVERSAL_TIME_OFFSET ( 8, 0, .AHEAD. ) ;
#148 = FACE_OUTER_BOUND ( 'NONE', #286, .T. ) ;
#149 = VECTOR ( 'NONE', #179, 1000.000000000000000 ) ;
#150 = APPROVAL_PERSON_ORGANIZATION ( #141, #223, #35 ) ;
#151 = PLANE ( 'NONE',  #182 ) ;
#152 = DIRECTION ( 'NONE',  ( -1.000000000000000000, -0.000000000000000000, -0.000000000000000000 ) ) ;
#153 = CARTESIAN_POINT ( 'NONE',  ( -0.5000000000000006661, 0.000000000000000000, 0.000000000000000000 ) ) ;
#154 = DIRECTION ( 'NONE',  ( 0.000000000000000000, 0.000000000000000000, 1.000000000000000000 ) ) ;
#155 = DIRECTION ( 'NONE',  ( 1.000000000000000000, 0.000000000000000000, 0.000000000000000000 ) ) ;
#156 = ADVANCED_FACE ( 'NONE', ( #278 ), #49, .F. ) ;
#157 = EDGE_LOOP ( 'NONE', ( #142, #159 ) ) ;
#158 = APPLICATION_PROTOCOL_DEFINITION ( 'international standard', 'config_control_design', 1994, #300 ) ;
#159 = ORIENTED_EDGE ( 'NONE', *, *, #329, .F. ) ;
#160 = EDGE_CURVE ( 'NONE', #264, #231, #2, .T. ) ;
#161 = ORIENTED_EDGE ( 'NONE', *, *, #329, .T. ) ;
#162 = PERSON_AND_ORGANIZATION ( #247, #170 ) ;
#163 = ORIENTED_EDGE ( 'NONE', *, *, #104, .T. ) ;
#164 = COORDINATED_UNIVERSAL_TIME_OFFSET ( 8, 0, .AHEAD. ) ;
#165 = CARTESIAN_POINT ( 'NONE',  ( 0.5000000000000013323, 0.000000000000000000, 0.000000000000000000 ) ) ;
#166 = EDGE_CURVE ( 'NONE', #1, #218, #256, .T. ) ;
#167 = DIRECTION ( 'NONE',  ( -1.000000000000000000, 0.000000000000000000, -0.000000000000000000 ) ) ;
#168 = CARTESIAN_POINT ( 'NONE',  ( -1.614212418857619014, 0.000000000000000000, 12.69999999999999929 ) ) ;
#169 = EDGE_LOOP ( 'NONE', ( #236, #191, #266, #8 ) ) ;
#170 = ORGANIZATION ( 'UNSPECIFIED', 'UNSPECIFIED', '' ) ;
#171 = CARTESIAN_POINT ( 'NONE',  ( 2.999999999999999112, 0.000000000000000000, 0.000000000000000000 ) ) ;
#172 = CARTESIAN_POINT ( 'NONE',  ( -3.000000000000000000, 0.000000000000000000, 0.000000000000000000 ) ) ;
#173 =( NAMED_UNIT ( * ) PLANE_ANGLE_UNIT ( ) SI_UNIT ( $, .RADIAN. ) );
#174 = CARTESIAN_POINT ( 'NONE',  ( 3.000000000000000000, 0.000000000000000000, 0.000000000000000000 ) ) ;
#175 = AXIS2_PLACEMENT_3D ( 'NONE', #74, #310, #307 ) ;
#176 = AXIS2_PLACEMENT_3D ( 'NONE', #255, #258, #281 ) ;
#177 = DIRECTION ( 'NONE',  ( 0.000000000000000000, 0.000000000000000000, 1.000000000000000000 ) ) ;
#178 = DIRECTION ( 'NONE',  ( -1.000000000000000000, -0.000000000000000000, -0.000000000000000000 ) ) ;
#179 = DIRECTION ( 'NONE',  ( -1.000000000000000000, -0.000000000000000000, -0.000000000000000000 ) ) ;
#180 = ORIENTED_EDGE ( 'NONE', *, *, #249, .T. ) ;
#181 = CARTESIAN_POINT ( 'NONE',  ( 3.000000000000000000, 0.000000000000000000, 0.000000000000000000 ) ) ;
#182 = AXIS2_PLACEMENT_3D ( 'NONE', #123, #251, #248 ) ;
#183 = AXIS2_PLACEMENT_3D ( 'NONE', #261, #226, #309 ) ;
#184 = VERTEX_POINT ( 'NONE', #73 ) ;
#185 = APPROVAL_STATUS ( 'not_yet_approved' ) ;
#186 = VERTEX_POINT ( 'NONE', #101 ) ;
#187 = DIRECTION ( 'NONE',  ( 0.000000000000000000, 0.000000000000000000, 1.000000000000000000 ) ) ;
#188 = ORIENTED_EDGE ( 'NONE', *, *, #249, .F. ) ;
#189 = PERSON_AND_ORGANIZATION ( #247, #170 ) ;
#190 = CC_DESIGN_PERSON_AND_ORGANIZATION_ASSIGNMENT ( #113, #63, ( #66 ) ) ;
#191 = ORIENTED_EDGE ( 'NONE', *, *, #117, .T. ) ;
#192 = PERSON_AND_ORGANIZATION_ROLE ( 'design_owner' ) ;
#193 = DIRECTION ( 'NONE',  ( 0.000000000000000000, 0.000000000000000000, 1.000000000000000000 ) ) ;
#194 = PLANE ( 'NONE',  #23 ) ;
#195 = DIRECTION ( 'NONE',  ( -1.000000000000000000, -0.000000000000000000, -0.000000000000000000 ) ) ;
#196 = AXIS2_PLACEMENT_3D ( 'NONE', #318, #90, #245 ) ;
#197 = ADVANCED_FACE ( 'NONE', ( #19 ), #202, .F. ) ;
#198 = FACE_OUTER_BOUND ( 'NONE', #169, .T. ) ;
#199 = EDGE_LOOP ( 'NONE', ( #180, #30 ) ) ;
#200 = PRODUCT_DEFINITION_FORMATION_WITH_SPECIFIED_SOURCE ( 'ANY', '', #78, .NOT_KNOWN. ) ;
#201 = EDGE_CURVE ( 'NONE', #284, #214, #206, .T. ) ;
#202 = CYLINDRICAL_SURFACE ( 'NONE', #274, 10.00000000000000000 ) ;
#203 = CARTESIAN_POINT ( 'NONE',  ( 0.5000000000000013323, 1.224646799147353256E-15, -10.00000000000000000 ) ) ;
#204 = ADVANCED_BREP_SHAPE_REPRESENTATION ( 'QM-AAHWP-20-650-1100-M', ( #326, #144 ), #50 ) ;
#205 = DIRECTION ( 'NONE',  ( -1.000000000000000000, -0.000000000000000000, -0.000000000000000000 ) ) ;
#206 = LINE ( 'NONE', #75, #13 ) ;
#207 = CYLINDRICAL_SURFACE ( 'NONE', #183, 12.69999999999999929 ) ;
#208 = LOCAL_TIME ( 10, 33, 46.00000000000000000, #29 ) ;
#209 = DIRECTION ( 'NONE',  ( 0.000000000000000000, 0.000000000000000000, 1.000000000000000000 ) ) ;
#210 = ORIENTED_EDGE ( 'NONE', *, *, #76, .T. ) ;
#211 = CARTESIAN_POINT ( 'NONE',  ( 2.999999999999999112, 1.224646799147353256E-15, -10.00000000000000000 ) ) ;
#212 = VERTEX_POINT ( 'NONE', #16 ) ;
#213 = VECTOR ( 'NONE', #55, 1000.000000000000000 ) ;
#214 = VERTEX_POINT ( 'NONE', #277 ) ;
#215 = ADVANCED_FACE ( 'NONE', ( #282 ), #47, .F. ) ;
#216 = ORIENTED_EDGE ( 'NONE', *, *, #268, .F. ) ;
#217 = COORDINATED_UNIVERSAL_TIME_OFFSET ( 8, 0, .AHEAD. ) ;
#218 = VERTEX_POINT ( 'NONE', #22 ) ;
#219 = AXIS2_PLACEMENT_3D ( 'NONE', #181, #99, #333 ) ;
#220 = MECHANICAL_CONTEXT ( 'NONE', #300, 'mechanical' ) ;
#221 = LINE ( 'NONE', #94, #17 ) ;
#222 = CIRCLE ( 'NONE', #305, 12.69999999999999929 ) ;
#223 = APPROVAL ( #237, 'UNSPECIFIED' ) ;
#224 = DIRECTION ( 'NONE',  ( -1.000000000000000000, -0.000000000000000000, -0.000000000000000000 ) ) ;
#225 = CIRCLE ( 'NONE', #175, 10.00000000000000000 ) ;
#226 = DIRECTION ( 'NONE',  ( -1.000000000000000000, -0.000000000000000000, -0.000000000000000000 ) ) ;
#227 = DIRECTION ( 'NONE',  ( 0.000000000000000000, 0.000000000000000000, 1.000000000000000000 ) ) ;
#228 = LINE ( 'NONE', #332, #115 ) ;
#229 = AXIS2_PLACEMENT_3D ( 'NONE', #171, #330, #177 ) ;
#230 = DIRECTION ( 'NONE',  ( 0.000000000000000000, 0.000000000000000000, 1.000000000000000000 ) ) ;
#231 = VERTEX_POINT ( 'NONE', #134 ) ;
#232 = DIRECTION ( 'NONE',  ( 1.000000000000000000, 0.000000000000000000, 0.000000000000000000 ) ) ;
#233 = ORIENTED_EDGE ( 'NONE', *, *, #76, .F. ) ;
#234 = PERSON_AND_ORGANIZATION_ROLE ( 'creator' ) ;
#235 = CC_DESIGN_APPROVAL ( #26, ( #66 ) ) ;
#236 = ORIENTED_EDGE ( 'NONE', *, *, #160, .F. ) ;
#237 = APPROVAL_STATUS ( 'not_yet_approved' ) ;
#238 = VERTEX_POINT ( 'NONE', #334 ) ;
#239 = CALENDAR_DATE ( 2021, 5, 1 ) ;
#240 = EDGE_CURVE ( 'NONE', #218, #1, #140, .T. ) ;
#241 = ORIENTED_EDGE ( 'NONE', *, *, #201, .F. ) ;
#242 = AXIS2_PLACEMENT_3D ( 'NONE', #51, #327, #154 ) ;
#243 = EDGE_LOOP ( 'NONE', ( #114, #315 ) ) ;
#244 = PRODUCT_RELATED_PRODUCT_CATEGORY ( 'detail', '', ( #78 ) ) ;
#245 = DIRECTION ( 'NONE',  ( -0.000000000000000000, 0.000000000000000000, 1.000000000000000000 ) ) ;
#246 = EDGE_CURVE ( 'NONE', #322, #186, #70, .T. ) ;
#247 = PERSON ( 'UNSPECIFIED', 'UNSPECIFIED', 'UNSPECIFIED', ('UNSPECIFIED'), ('UNSPECIFIED'), ('UNSPECIFIED') ) ;
#248 = DIRECTION ( 'NONE',  ( 0.000000000000000000, 0.000000000000000000, -1.000000000000000000 ) ) ;
#249 = EDGE_CURVE ( 'NONE', #231, #264, #257, .T. ) ;
#250 = CC_DESIGN_DATE_AND_TIME_ASSIGNMENT ( #252, #10, ( #66 ) ) ;
#251 = DIRECTION ( 'NONE',  ( 1.000000000000000000, 0.000000000000000000, 0.000000000000000000 ) ) ;
#252 = DATE_AND_TIME ( #270, #31 ) ;
#253 = FACE_OUTER_BOUND ( 'NONE', #157, .T. ) ;
#254 = DIRECTION ( 'NONE',  ( -1.000000000000000000, -0.000000000000000000, -0.000000000000000000 ) ) ;
#255 = CARTESIAN_POINT ( 'NONE',  ( -0.5000000000000006661, 0.000000000000000000, 0.000000000000000000 ) ) ;
#256 = CIRCLE ( 'NONE', #316, 10.00000000000000000 ) ;
#257 = CIRCLE ( 'NONE', #122, 10.00000000000000000 ) ;
#258 = DIRECTION ( 'NONE',  ( 1.000000000000000000, 0.000000000000000000, 0.000000000000000000 ) ) ;
#259 = DIRECTION ( 'NONE',  ( -1.000000000000000000, -0.000000000000000000, -0.000000000000000000 ) ) ;
#260 = FACE_OUTER_BOUND ( 'NONE', #290, .T. ) ;
#261 = CARTESIAN_POINT ( 'NONE',  ( -1.614212418857619014, 0.000000000000000000, 0.000000000000000000 ) ) ;
#262 =( LENGTH_UNIT ( ) NAMED_UNIT ( * ) SI_UNIT ( .MILLI., .METRE. ) );
#263 = ORIENTED_EDGE ( 'NONE', *, *, #100, .F. ) ;
#264 = VERTEX_POINT ( 'NONE', #211 ) ;
#265 = APPROVAL_ROLE ( '' ) ;
#266 = ORIENTED_EDGE ( 'NONE', *, *, #246, .T. ) ;
#267 = PERSON_AND_ORGANIZATION ( #247, #170 ) ;
#268 = EDGE_CURVE ( 'NONE', #214, #212, #222, .T. ) ;
#269 = ADVANCED_FACE ( 'NONE', ( #260 ), #207, .T. ) ;
#270 = CALENDAR_DATE ( 2021, 5, 1 ) ;
#271 = CARTESIAN_POINT ( 'NONE',  ( -1.614212418857619014, 0.000000000000000000, 0.000000000000000000 ) ) ;
#272 = DESIGN_CONTEXT ( 'detailed design', #77, 'design' ) ;
#273 = AXIS2_PLACEMENT_3D ( 'NONE', #72, #224, #79 ) ;
#274 = AXIS2_PLACEMENT_3D ( 'NONE', #46, #254, #131 ) ;
#275 = EDGE_CURVE ( 'NONE', #60, #238, #225, .T. ) ;
#276 = DIRECTION ( 'NONE',  ( 0.000000000000000000, 0.000000000000000000, -1.000000000000000000 ) ) ;
#277 = CARTESIAN_POINT ( 'NONE',  ( -3.000000000000000000, 1.555301434917138433E-15, -12.69999999999999929 ) ) ;
#278 = FACE_OUTER_BOUND ( 'NONE', #312, .T. ) ;
#279 = AXIS2_PLACEMENT_3D ( 'NONE', #174, #96, #209 ) ;
#280 = CC_DESIGN_APPROVAL ( #294, ( #200 ) ) ;
#281 = DIRECTION ( 'NONE',  ( 0.000000000000000000, 0.000000000000000000, -1.000000000000000000 ) ) ;
#282 = FACE_OUTER_BOUND ( 'NONE', #84, .T. ) ;
#283 =( NAMED_UNIT ( * ) SI_UNIT ( $, .STERADIAN. ) SOLID_ANGLE_UNIT ( ) );
#284 = VERTEX_POINT ( 'NONE', #80 ) ;
#285 = AXIS2_PLACEMENT_3D ( 'NONE', #271, #146, #14 ) ;
#286 = EDGE_LOOP ( 'NONE', ( #28, #109 ) ) ;
#287 = CALENDAR_DATE ( 2021, 5, 1 ) ;
#288 = ORIENTED_EDGE ( 'NONE', *, *, #100, .T. ) ;
#289 = APPLICATION_PROTOCOL_DEFINITION ( 'international standard', 'config_control_design', 1994, #77 ) ;
#290 = EDGE_LOOP ( 'NONE', ( #62, #67, #9, #323 ) ) ;
#291 = APPROVAL_DATE_TIME ( #138, #294 ) ;
#292 = ORIENTED_EDGE ( 'NONE', *, *, #130, .T. ) ;
#293 = PERSON_AND_ORGANIZATION_ROLE ( 'creator' ) ;
#294 = APPROVAL ( #185, 'UNSPECIFIED' ) ;
#295 = ORIENTED_EDGE ( 'NONE', *, *, #240, .F. ) ;
#296 = CIRCLE ( 'NONE', #44, 10.00000000000000000 ) ;
#297 = LINE ( 'NONE', #168, #121 ) ;
#298 = FACE_OUTER_BOUND ( 'NONE', #106, .T. ) ;
#299 = CARTESIAN_POINT ( 'NONE',  ( -0.5000000000000006661, 1.224646799147353256E-15, -10.00000000000000000 ) ) ;
#300 = APPLICATION_CONTEXT ( 'configuration controlled 3d designs of mechanical parts and assemblies' ) ;
#301 = CARTESIAN_POINT ( 'NONE',  ( -3.000000000000000000, 0.000000000000000000, 0.000000000000000000 ) ) ;
#302 = DIRECTION ( 'NONE',  ( -1.000000000000000000, -0.000000000000000000, -0.000000000000000000 ) ) ;
#303 = DIRECTION ( 'NONE',  ( 0.000000000000000000, 0.000000000000000000, 1.000000000000000000 ) ) ;
#304 = CC_DESIGN_PERSON_AND_ORGANIZATION_ASSIGNMENT ( #27, #192, ( #78 ) ) ;
#305 = AXIS2_PLACEMENT_3D ( 'NONE', #335, #331, #127 ) ;
#306 = CC_DESIGN_PERSON_AND_ORGANIZATION_ASSIGNMENT ( #162, #234, ( #200 ) ) ;
#307 = DIRECTION ( 'NONE',  ( 0.000000000000000000, 0.000000000000000000, 1.000000000000000000 ) ) ;
#308 = CARTESIAN_POINT ( 'NONE',  ( -1.614212418857619014, 0.000000000000000000, 10.00000000000000000 ) ) ;
#309 = DIRECTION ( 'NONE',  ( 0.000000000000000000, 0.000000000000000000, 1.000000000000000000 ) ) ;
#310 = DIRECTION ( 'NONE',  ( -1.000000000000000000, -0.000000000000000000, -0.000000000000000000 ) ) ;
#311 = CC_DESIGN_APPROVAL ( #223, ( #92 ) ) ;
#312 = EDGE_LOOP ( 'NONE', ( #135, #188, #292, #120 ) ) ;
#313 = ADVANCED_FACE ( 'NONE', ( #53 ), #129, .T. ) ;
#314 = EDGE_LOOP ( 'NONE', ( #112, #5 ) ) ;
#315 = ORIENTED_EDGE ( 'NONE', *, *, #275, .F. ) ;
#316 = AXIS2_PLACEMENT_3D ( 'NONE', #153, #155, #276 ) ;
#317 = EDGE_LOOP ( 'NONE', ( #241, #161, #59, #216 ) ) ;
#318 = CARTESIAN_POINT ( 'NONE',  ( 2.999999999999999556, 12.69999999999999929, 0.000000000000000000 ) ) ;
#319 = FACE_BOUND ( 'NONE', #243, .T. ) ;
#320 = APPROVAL_PERSON_ORGANIZATION ( #189, #294, #265 ) ;
#321 = LOCAL_TIME ( 10, 33, 46.00000000000000000, #4 ) ;
#322 = VERTEX_POINT ( 'NONE', #203 ) ;
#323 = ORIENTED_EDGE ( 'NONE', *, *, #82, .F. ) ;
#324 = CARTESIAN_POINT ( 'NONE',  ( -1.614212418857619014, 0.000000000000000000, 10.00000000000000000 ) ) ;
#325 = AXIS2_PLACEMENT_3D ( 'NONE', #18, #128, #52 ) ;
#326 = MANIFOLD_SOLID_BREP ( 'Ðý×', #61 ) ;
#327 = DIRECTION ( 'NONE',  ( -1.000000000000000000, -0.000000000000000000, -0.000000000000000000 ) ) ;
#328 = DIRECTION ( 'NONE',  ( 0.000000000000000000, 0.000000000000000000, 1.000000000000000000 ) ) ;
#329 = EDGE_CURVE ( 'NONE', #284, #184, #102, .T. ) ;
#330 = DIRECTION ( 'NONE',  ( -1.000000000000000000, -0.000000000000000000, -0.000000000000000000 ) ) ;
#331 = DIRECTION ( 'NONE',  ( -1.000000000000000000, -0.000000000000000000, -0.000000000000000000 ) ) ;
#332 = CARTESIAN_POINT ( 'NONE',  ( -1.614212418857619014, 1.224646799147353256E-15, -10.00000000000000000 ) ) ;
#333 = DIRECTION ( 'NONE',  ( 0.000000000000000000, 0.000000000000000000, 1.000000000000000000 ) ) ;
#334 = CARTESIAN_POINT ( 'NONE',  ( -3.000000000000000000, 0.000000000000000000, 10.00000000000000000 ) ) ;
#335 = CARTESIAN_POINT ( 'NONE',  ( -3.000000000000000000, 0.000000000000000000, 0.000000000000000000 ) ) ;
ENDSEC;
END-ISO-10303-21;
